Ceddin Deden Neslin Baban Notaları

Konusu 'Notalar' forumundadır ve Nysa tarafından 15 Nisan 2018 18:01 başlatılmıştır.

  1. Nysa Well-Known Member


    Ceddin Deden Marşı notaları

    re la la la sol la (orta parmak havada- sol iken), incedo, la, (orta parmak havada- sol iken), la, sol, la , sol fa, (orta parmak havada- sol iken), la, sol,sol

    (orta parmak havada- sol iken), la, sol,sol, la fa mi re sol, sol fa sol mi do re mi fa mi re


    Ceddin Deden Tab

    E------------------/-------------------/------------------------/
    B---------------1--/---------------1---/------------------------/
    G---2-2-2-0-2-3---2/---2-2-2-0-2-3---2-/-3-2-0-2-0---3-2-0-0----/
    D-0----------------/-0-----------------/-----------3------------/
    A------------------/-------------------/------------------------/
    E------------------/-------------------/------------------------/
    E--------------------/---------------------/
    B--------------------/---------------------/
    G-3-2-0-0-2-0-------0/-0---0---------------/
    D-------------3-1-0--/---3---1-0-1-3-1-0---/
    A--------------------/---------------------/
    E--------------------/---------------------/


    CEDDİN DEDEN

    Ceddin deden, neslin baban
    Hep kahraman Türk milleti
    Orduların, pekçok zaman
    Vermiştiler dünyaya şan.

    Türk milleti, Türk milleti
    Aşk ile sev milliyeti
    Kahret vatan düşmanını
    Çeksin o mel’un zilleti.
     


Sayfayı Paylaş