İstiklal Marşının Notası 2 Kıtası

Konusu 'Notalar' forumundadır ve Emel tarafından 19 Eylül 2013 başlatılmıştır.

  1. Emel Well-Known Member


    İstiklal Marşı ilk iki Kıtası Notaları ve Gitar Tab

    Korkma, sönmez bu şafaklarda yüzen al sancak
    Sönmeden yurdumun üstünde tüten en son ocak.
    O benim milletimin yıldızıdır parlayacak!
    O benimdir, o benim milletimindir ancak!

    Çatma, kurban olayım, çehreni ey nazlı hilal!
    Kahraman ırkıma bir gül... ne bu şiddet, bu celâl?
    Sana olmaz dökülen kanlarımız sonra helal.
    Hakkıdır, Hakk'a tapan milletimin istiklal.


    Zeki Üngör - İstiklal Marşı - Tab (versiyon 2)

    E--------------/--------------/-------------------------------0-------------/
    B--------------/-----0-1---0--/-0---0-------------------0-1-3---3-----0-----/
    G-------0------/---2-----1---2/---3-------2-0-------0-2-----------------2-0-/
    D---2-4---1-4-2/-2------------/-------4-4-----1-2-4---------------0-0-------/
    A-2------------/--------------/---------------------------------------------/
    E--------------/--------------/---------------------------------------------/

    E-----------------------0----------------------/
    B-----------0-------------3-1-0----------0-----/
    G-------------2-0---0-----------2-0------------/
    D-------4---------4---2-------------4-2------2-/
    A-2-1-2---2--------------------------------2---/
    E----------------------------------------------/

    [​IMG]
     



Sayfayı Paylaş