Duman Ah Gitar Akorları

Konusu 'Notalar' forumundadır ve Emel tarafından 11 Ekim 2012 başlatılmıştır.

  1. Emel Well-Known Member


    Duman Ah Yeni Gitar Akorları
    Duman Ah Şarkısı Sözü Solo Gitar Notası ve Tab Gitar Akoru


    |---------------------------------------------------|
    |---------------------------------------------------|
    |-------0-7--10--8-7-5-3----------------------------|
    |---------------------------------------------------|
    |-----------------------------3-3---6-5-6-5-6-5-----|
    |-3-/6----------------------------------------------|


    |-------------------------------|----------------------------------|
    |-------------------------------|----------------------------------|
    |-5-5--10--8-7-5-3-5--5-5-------|-5-5--10--8-7-5-3-5--5\-----------|
    |-------------------------------|----------------------------------|
    |-------------------------------|----------------------------------|
    |-------------------------------|----------------------------------|

    Buraya kadar şarkının introsu yalnız burda sizinde duyduğunuz gibi 2 gitar var ağır basanı çalın diye bunu veriyorum 6 5 6 5 6 5 leri yaparken tellere biraz değerek çalıyorsunuz tam oturuyor....


    |------------------------------------------------------------------------------------------------|
    |------------------------------------------------------------------------------------------------|
    |------------------------------------------------------------------------------------------------|
    |------------------------------------------------------------------------------------------------|
    |-8-8-8-8--6-6-6-6--3-3--6-5-6-5-6-5-----------------------8-8-8-8--6-6-6-6---3-3--6-5-6-5-6-5---|
    |-6-6-6-6--4-4-4-4-----------------------------------------6-6-6-6--4-4-4-4----------------------|


    bu kısımda sözler giriyor nakarata gelene kadar bunu ve asağıdakini uygun
    şekilde yapıyorsunuz.....

    |---------------------------------------------------|
    |---------------------------------------------------|
    |--------------------------------------5-5-5-5-5----|
    |-8-8-8-8--6-6-6-6--8-8-8-8--6-6-6-6---5-5-5-5-5----|
    |-8-8-8-8--6-6-6-6--8-8-8-8--6-6-6-6---3-3-3-3-3----|
    |-6-6-6-6--4-4-4-4--6-6-6-6--4-4-4-4----------------|

    1.SOLO ; solo severlere güzel bir fırsat aynısı çok zek alacaksınız
    burda dis açık ve hafif eko var..

    |----------------------------------------------|
    |----------------------------------------------|
    |----------------------------------------------|
    |----------------------------------------------|
    |--------------------------8-8-8-6-6-6-6-6-----|
    |-11--10-8--7-7-8--10--11--6-6-6-4-4-4-4-4-----|



    |-------8-8----------8-8--------8------10------8-8------------------|
    |-8---------8------8----------8---8--------8----------8-------------|
    |--------------5-----------7--------------------------------5/0-----|
    |-------------------------------------------------------------------|
    |-------------------------------------------------------------------|
    |-------------------------------------------------------------------|

    BÜYÜK SOLO;

    |---------------------------------------------------------|
    |---------------------------------------------------------|
    |---------------------------------------------------------|
    |-5-3-5-5-3-0---------------5-3-5-5-0----------------|
    |-------------------3-5----------------------3-5---------|
    |----------------------------------------------------------|

    burası şarkının en sonundaki solo biraz kasın olacak

    |---------------------------------------------------------------------|
    |---------------------------------------------------------------------|
    |---------------------------------------------------------------------|
    |-5-3-5-5-3-0------------------17-15-17-17-15-0-----------------------|
    |-----------------3-5\--17-------------------------------15-17--------|
    |---------------------------------------------------------------------|

    -
    |---------------------------------------------|
    |---------------------------------------------|
    |---------------------------------------------|
    |-22-19-22-22-22--17-15-17-19-17--------------|
    |---------------------------------------------|
    |---------------------------------------------|
     



Sayfayı Paylaş